SOMOS LAS GEMAS DE CRISTAL

STEVEN UNIVERSE

ACORDES ~ By Fefe (Tron544)

 

Chords used/Acordes utilizados:

 

(GUITAR)

 

A: x.0.2.2.2.0
Bb: x.1.3.3.3.1  -  Bbm: x.1.3.3.2.1
C: x.3.2.0.1.0
F: 1.3.3.2.1.1

 

(UKULELE)

 

A: 2.1.0.0
Bb: 3.2.1.1  -  Bbm: 3.1.1.1
C: 0.0.0.3
F: 2.0.1.0

 

F                          A
   Si eres un villano y te portas mal
     Bb                C
   Nosotros cuatro te vamos a derrotar
F                     A
   El mal nunca gana aunque insista
     Bb                C      
   Ganamos la pelea y vamos por pizzas

 


   F                          A
   Somos las gemas de cristal
                           Bb
   El mundo hay que salvar
                         Bbm
   Y aunque creas que no
                           F
   La forma vamos a hallar
                    A               Bb
   Por eso la gente de este mundo cree en
              Bbm                      F
   Garnet, Amatista, y Perla y Steven!

We Are the Crystal Gems - Tron544
00:00 / 00:00
DONATE%20BUTTON%20(ES)_edited.png

TABS ~ By Fefe (Tron544)

 

Verse/Estrofa:

 

e|------------------------------------------------------------------------|
B|------------------------------------------------------------------------|
G|-----------------------9--10--9---7-----------------7-------------------|
D|--10--7--10--7--10--7----------------10----------------10---------7--7--|
A|-----------------------------------------8--10--10---------8--10--------|
E|------------------------------------------------------------------------|

 

e|--------------------------------------------------------------------------------|
B|------------------------------------------------------------------10--8---------|
G|-----------------------9--10--9-----------10--10--10---------------------10--9--|
D|--10--7--10--7--10--7------------10---10--------------10--10--10----------------|
A|--------------------------------------------------------------------------------|
E|--------------------------------------------------------------------------------|

 


Chorus/Estribillo:

 

e|-------------------------------------------------------------------------------------------------|
B|--------10--8------8-----------10--8-------------------10--8-------------------10--8-------------|
G|---------------10-----9---------------10--9--10---------------10--9-------------------10--9--10--|
D|--10-----------------------10----------------------10----------------10----10--------------------|
A|-------------------------------------------------------------------------------------------------|
E|-------------------------------------------------------------------------------------------------|

 

e|----------------------------------------------------------------------------10------|
B|------10--8------8----------------8--8---------10--8------8----------10--8------10--|
G|-------------10-----9--------------------10-----------10-----9----------------------|
D|--10--------------------10---7----------------------------------10------------------|
A|------------------------------------------------------------------------------------|
E|------------------------------------------------------------------------------------|