HISTORY MAKER

Yuri!!! on ICE

TABS ~ By Fefe (Tron544)

 

Verse/Estrofa:

e|-------------------------------------------------------------------|
B|-------------------------------------------------------------------|
G|----------------------4--4------4----------------------------------|
D|----4--6--6--------6----------------4-4--4--------4-4-6--4/6-------|
A|-------------------------------------------------------------------|
E|----------------------------------------------------------------7--|

e|-------------------------------------------------------------------|
B|-------------------------------------------------------------------|
G|-----------------------4--4----6-----------------------------------|
D|----6--6--6----6----6-------------2/4----4--4----6-----------6--7--|
A|----------------------------------------------------7--------------|
E|-------------------------------------------------------------------|


Pre-Chorus/Pre-Estribillo:

e|---------------------------------------------------------------------|
B|---------------------------------------------------------------------|
G|---------------------------------------------------------------------|
D|--9----9--9--7--6--------------6---9----9--9--7--6--4---4h6---4------|
A|-------------------9---7---9-----------------------------------------|
E|---------------------------------------------------------------------|

e|--------------------------------------------------------------------------------|
B|--------------------------------------------------------------------------------|
G|------------------------------------------------6--8--9---8---9---9/11---9------|
D|--7--/9--9--9--7--6------------6--7--9----9--9----------------------------------|
A|---------------------9--7-------------------------------------------------------|
E|--------------------------------------------------------------------------------|

Fukashigi no Carte - Tron544
00:00 / 00:00
DONATE%20BUTTON%20(ES)_edited.png

Chorus/Estribillo:

e|-----------------------------------------------------------------------------|
B|-------------------------------------------------------------------10--9-----|
G|---------9--11--9---------11--9--11--9/11------11--9----11--9--11---------9--|
D|------9----------------9-----------------------------------------------------|
A|-----------------------------------------------------------------------------|
E|-----------------------------------------------------------------------------|

e|--------------------------------------------------------------------------------|
B|----------------------------------------------------------------------10--9-----|
G|---------9--11--9--9-------11--9--11--9/11------11--11--9--11--9--11---------9--|
D|------9-----------------9-------------------------------------------------------|
A|--------------------------------------------------------------------------------|
E|--------------------------------------------------------------------------------|

e|-----------------------------------------------------------|
B|-------------------------------------------------10--9-----|
G|--------------------------------------11--9--11---------9--|
D|-----------------------------------------------------------|
A|-----------------------------------------------------------|
E|-----------------------------------------------------------|

e|---------------------------------------------------------------|
B|-----------------------------------------------------10--9-----|
G|----------------------------------11--11--11--9--11---------9--|
D|---------------------------------------------------------------|
A|---------------------------------------------------------------|
E|---------------------------------------------------------------|

e|-----------------------------------------------------------------------------|
B|-------------------------------------------------------------------10--9-----|
G|---------9--11--9---------11--9--11--9/11------11--9----11--9--11---------9--|
D|------9----------------9-----------------------------------------------------|
A|-----------------------------------------------------------------------------|
E|-----------------------------------------------------------------------------|

e|--------------------------------------------------------------------------------|
B|----------------------------------------------------------------------10--9-----|
G|---------9--11--9--9-------11--9--11--9/11------11--11--9--11--9--11---------9--|
D|------9-----------------9-------------------------------------------------------|
A|--------------------------------------------------------------------------------|
E|--------------------------------------------------------------------------------|

e|--------------------------------------------------------------------------------------|
B|----------------------------10--9---------------------------------10--9---------------|
G|----------11--9--11--9--11---------9--------11--11--9--11--9--11---------9------------|
D|--------------------------------------------------------------------------------------|
A|--------------------------------------------------------------------------------------|
E|--------------------------------------------------------------------------------------|