CHIISANA BOUKENSHA

KONO SUBARASHII SEKAI NI SHUKUFUKU WO!

ACORDES ~ By Fefe (Tron544)

 

Chords used/Acordes utilizados:

Am: x.0.2.2.1.0
C: x.3.2.0.1.0
Em: 0.2.2.0.0.0
F: 1.3.3.2.1.1
G: 3.2.0.0.3.3

 

| C Em | F C | F G | F G C / |

   C    Em     F       C
   Koronde surimuita toko
          Am   Em      F      G
   Chi ga nijinde shimiru keredo
   C        Em      F       C
   Hecchara sa sugu naoru kara
       F     G        F  G   C
   Ashita ni wa kasabuta dekiru

 


   C         Em      F         C
   Kyou mo mata baka ni sareta yo
       Am     Em      F        G
   Hazukashii shi kuyashii keredo
   C        Em    F       C
   Hecchara sa oboete oke yo
       F    G      F  G    C
   Ima ni warai kaeshite yaru

 


       Em   F    G         Am
   Misaki kara fune wo daseba
        Em  F     G        Am
   Kaze wo uke ho ga fukuramu
        Em  F     G          Am
   Boku wa ima tsuchi wo hanare
       Em      F       G         C
   Nanatsu no umi wo mata ni kakeru

 


| C Em | F C | Am Em | F G |
| C Em | F C | F G | F G C / |

 


   C        Em     F        C
   Kenka shite nagurareta toko
       Am   Em    F     G
   Murasakiiro azanin atta
   C        Em      F         C
   Hecchara sa kyou no tokoro wa
       F    G          F G   C
   Maketa koto ni shitoite yaru

 


       Em   F      G        Am
   Oka ni tachi te wo hirogete
        Em   F     G         Am
   Kaze wo machi habataku no sa
        Em  F     G          Am
   Boku wa ima tsuchi wo hanare
     Em     F     G          C
   Oozora wataru ichiwa no tori

 


       Em   F    G        Am
   Minami kara kaze ga fuite
        Em  F    G        Am
   Kyuu ni ame furi hajimeta
        Em   F    G        Am
   Haru wa sugu tonari ni iru
      Em    F      G       C
   Sentakumono torikomanakucha

 


| Em F | G C ||

Chiisana Boukensha - Tron544
00:00 / 00:00
DONATE%20BUTTON%20(ES)_edited.png

TABS ~ By Fefe (Tron544)

 

Intro:

GUITAR (Lead):

e|--------------------5--8-5------------------------------------------------|
B|-----------5---5--8---------8-5---5--------10---8--5----------------------|
G|--5---5--7---------------------------7-5-------------7----5---5--7-5------|
D|--------------------------------------------------------5-----------------|
A|--------------------------------------------------------------------------|
E|--------------------------------------------------------------------------|

BASS:

G|-------------------------------------------------------------|
D|---------2------3----------5---3------5----------------------|
A|--3--------------------3------------------------------3------|
E|------------------------------------------3---1---3----------|

 


Part A/Parte A:

GUITAR (Vocals):

e|------------------------8---------------------------------------------------|
B|-----------5---5--8-10----10--8-5---5-------------5---5--8-10---8--5--------|
G|--5---5--7-----------------------------7-5---5--7--------------------7------|
D|----------------------------------------------------------------------------|
A|----------------------------------------------------------------------------|
E|----------------------------------------------------------------------------|

BASS:

G|------------------------------------------------------------|
D|---------2------3----------5---7------2------3------5-------|
A|--3--------------------3--------------------------------5---|
E|------------------------------------------------------------|

GUITAR (Vocals):

e|------------------------8---------------------------------------------------|
B|-----------5---5--8-10----10--8-5---5--------10---8--5----------------------|
G|--5---5--7-----------------------------7-5-------------7----5---5--7-5------|
D|----------------------------------------------------------5-----------------|
A|----------------------------------------------------------------------------|
E|----------------------------------------------------------------------------|

BASS:

G|-------------------------------------------------------------|
D|---------2------3----------5---3------5----------------------|
A|--3--------------------3------------------------------3------|
E|------------------------------------------3---1---3----------|

GUITAR (Vocals):

e|------------------------8---------------------------------------------------|
B|-----------5---5--8-10----10--8-5---5-------------5---5--8-10---8--5--------|
G|--5---5--7-----------------------------7-5---5--7--------------------7------|
D|----------------------------------------------------------------------------|
A|----------------------------------------------------------------------------|
E|----------------------------------------------------------------------------|

GUITAR (Lead):

e|-------------|--------------------------8----5------7-------5------7----------|
B|-------------|--5------5------6------5-------3------5---8---6---------8-6-----|
G|-------5-h7--|-------------------------------------------------------------7--|
D|--5-h7-------|----------------------------------------------------------------|
A|-------------|----------------------------------------------------------------|
E|-------------|----------------------------------------------------------------|

BASS:

G|------------------------------------------------------------|
D|---------2------3----------5---7------2------3------5-------|
A|--3--------------------3--------------------------------5---|
E|------------------------------------------------------------|

GUITAR (Vocals):

e|------------------------8---------------------------------------------------|
B|-----------5---5--8-10----10--8-5---5--------10---8--5----------------------|
G|--5---5--7-----------------------------7-5-------------7----5---5--7-5------|
D|----------------------------------------------------------5-----------------|
A|----------------------------------------------------------------------------|
E|----------------------------------------------------------------------------|

GUITAR (Lead):

e|---------7------5-------------------5---7-------5---7---8-----------|
B|--5------5------6------5---5--8-6---------------6-------5--8-5------|
G|---------4------5-----------------------7---4-------7---------------|
D|--------------------------------------------------------------------|
A|--------------------------------------------------------------------|
E|--------------------------------------------------------------------|

BASS:

G|-------------------------------------------------------------|
D|---------2------3----------5---3------5----------------------|
A|--3--------------------3------------------------------3------|
E|------------------------------------------3---1---3----------|

 


Part B/Parte B:

GUITAR (Vocals):

e|---------|----------------------------------------------------------------------------------|
B|---------|--8-----10-8-----10-8--------------------8-----10-8-----10-8----------------------|
G|--9--10--|-----------------------9-7-----9---9--10----------------------9-7----------9--10--|
D|---------|----------------------------10-------------------------------------10-10----------|
A|---------|----------------------------------------------------------------------------------|
E|---------|----------------------------------------------------------------------------------|

GUITAR (Lead):

e|--------------------------------------------------------5------------|
B|--------------------8--6-5---------------------------8----5----------|
G|--4------5------7-----------5-4----4------5------7-----------5-4-----|
D|---------------------------------7--------------------------------7--|
A|---------------------------------------------------------------------|
E|---------------------------------------------------------------------|

GUITAR (Banjo):

d|-------5---------5---------5---------5---------5---------5---------5---------5-----|
C|-----0----0----0----0----0----0----0----0----0----0----0----0----0----0----0----0--|
G|--4---------5---------7---------9---------4---------5---------7---------9----------|
D|-----------------------------------------------------------------------------------|
A|-----------------------------------------------------------------------------------|
E|-----------------------------------------------------------------------------------|

BASS:

G|--------------------------2-------2-------------------------2-------2--|
D|--2-----2-3-----3-5-----5-----------2-----2-3-----3-5-----5------------|
A|-----------------------------0-3-------------------------------0-3-----|
E|-----------------------------------------------------------------------|

GUITAR (Vocals):

e|-----------------------------------------------------------------------------------|
B|--8-----10-8-----10-8--10-13--12-13---------8--------------------------------------|
G|--------------------------------------9--10-----9-------------7-9--7-----7---------|
D|---------------------------------------------------10-7---10---------10----10------|
A|-----------------------------------------------------------------------------------|
E|-----------------------------------------------------------------------------------|

GUITAR (Lead):

e|---------------------------------------------------------------------|
B|--------------------8--6-5-------------5-----------------------------|
G|--4------5------7-----------5-4----4------7-5------------5--7-5------|
D|---------------------------------7--------------7---5--7-------------|
A|---------------------------------------------------------------------|
E|---------------------------------------------------------------------|

GUITAR (Banjo):

d|-------5---------5---------5---------5---------5---------5---------5------------|
C|-----0----0----0----0----0----0----0----0----0----0----0----0----0----0---------|
G|--4---------5---------7---------9---------4---------5---------7---------5---5---|
D|--------------------------------------------------------------------------------|
A|--------------------------------------------------------------------------------|
E|--------------------------------------------------------------------------------|

BASS:

G|--------------------------2-------2--------------------------------------|
D|--2-----2-3-----3-5-----5-----------2---2--2-3---3--3-5---5--5-----------|
A|-----------------------------0-3-------------------------------3---3--3--|
E|-------------------------------------------------------------------------|

 


Interlude:

GUITAR (Lead): Tremolo Picking

e|----------------------------------15--17(x4)-20(x2)-17(x4)-15--------------------|
B|--13(x6)--13----15--17(x6)--17---------------------------------17(x6)--17----15--|
G|---------------------------------------------------------------------------------|
D|---------------------------------------------------------------------------------|
A|---------------------------------------------------------------------------------|
E|---------------------------------------------------------------------------------|

GUITAR (Banjo):

d|-----------------------10----------------|
C|------------------7-9-----9--7-----------|
G|--5---5--7-9---9---------------9---9--7--|
D|-----------------------------------------|
A|-----------------------------------------|
E|-----------------------------------------|

BASS:

G|------------------------------|
D|------------------------------|
A|--3--------------------3------|
E|---------0------1-------------|

GUITAR (Lead): Tremolo Picking

e|---------------------------------------15(x2)-17(x6)--15--------------------------|
B|--13(x10)--------15(x2)-17(x10)-----------------------------17--15(x6)--15--------|
G|------------------------------------------------------------------------------12--|
D|----------------------------------------------------------------------------------|
A|----------------------------------------------------------------------------------|
E|----------------------------------------------------------------------------------|

GUITAR (Banjo):

d|-------------------------------------|
C|------------------7-9---7------------|
G|--5---5--7-9---9-----------9-7---7---|
D|-------------------------------------|
A|-------------------------------------|
E|-------------------------------------|

BASS:


G|-------------------------------|
D|-------------------------------|
A|--0------------------------5---|
E|---------0------1------3-------|

GUITAR (Lead): Tremolo Picking

e|----------------------------------15--17(x4)-20(x2)-17(x4)-15--------------------|
B|--13(x6)--13----15--17(x6)--17---------------------------------17(x6)--17----15--|
G|---------------------------------------------------------------------------------|
D|---------------------------------------------------------------------------------|
A|---------------------------------------------------------------------------------|
E|---------------------------------------------------------------------------------|

GUITAR (Banjo):

d|-----------------------10----------------|
C|------------------7-9-----9--7-----------|
G|--5---5--7-9---9---------------9---9--7--|
D|-----------------------------------------|
A|-----------------------------------------|
E|-----------------------------------------|

BASS:

G|------------------------------|
D|------------------------------|
A|--3--------------------3------|
E|---------0------1-------------|

GUITAR (Lead): Tremolo Picking

e|----------17(x6)--15-------------------------------------------------------|
B|--13(x6)----------------17--15--------13(x10)--------15(x2)-13(x12)--------|
G|----------------------------------12---------------------------------------|
D|---------------------------------------------------------------------------|
A|---------------------------------------------------------------------------|
E|---------------------------------------------------------------------------|

GUITAR (Banjo):

d|---------------------------------------|
C|------9---7----------------------0-----|
G|--5----------9-7---5---5--7-5--0----0--|
D|---------------------------------------|
A|---------------------------------------|
E|---------------------------------------|

BASS:

G|-------------------------------|
D|-------------------------------|
A|------------------------3------|
E|--1------3------1---3----------|

----------------|

Part A/Parte A:

GUITAR (Vocals):

e|------------------------8---------------------------------------------------|
B|-----------5---5--8-10----10--8-5---5-------------5---5--8-10---8--5--------|
G|--5---5--7-----------------------------7-5---5--7--------------------7------|
D|----------------------------------------------------------------------------|
A|----------------------------------------------------------------------------|
E|----------------------------------------------------------------------------|

GUITAR (Banjo):

d|--2--------------5---------3----2--------------2---------5---------3----0----------|
C|-----0----0----4----0----0----0----0----0----0----0----4----0----0----0----2----0--|
G|-------0----7---------2--------------0----2---------7---------2--------------0-----|
D|-----------------------------------------------------------------------------------|
A|-----------------------------------------------------------------------------------|
E|-----------------------------------------------------------------------------------|

BASS:

G|--5--------------------5----------------------------------|
D|---------2------3-------------7------2------3------5------|
A|----------------------------------------------------------|
E|----------------------------------------------------------|

GUITAR (Vocals):

e|------------------------8---------------------------------------------------|
B|-----------5---5--8-10----10--8-5---5--------10---8--5----------------------|
G|--5---5--7-----------------------------7-5-------------7----5---5--7-5------|
D|----------------------------------------------------------5-----------------|
A|----------------------------------------------------------------------------|
E|----------------------------------------------------------------------------|

GUITAR (Banjo):

d|--2--------------5---------3----2--------------3----0---------3---0---2----------|
C|-----0----0----4----0----0----0----0----0----0----0----2----0-0---2---0--0----0--|
G|-------0----7---------2--------------0----2--------------0----2---0---0----0-----|
D|---------------------------------------------------------------------------------|
A|---------------------------------------------------------------------------------|
E|---------------------------------------------------------------------------------|

BASS:

G|--5--------------------5----------------------------5--------|
D|---------2------3-------------3------5------3---5------5-----|
A|---------------------------------------------------------7---|
E|-------------------------------------------------------------|

 


Part B/Parte B:

GUITAR (Vocals):

e|---------|----------------------------------------------------------------------------------|
B|---------|--8-----10-8-----10-8--------------------8-----10-8-----10-8----------------------|
G|--9--10--|-----------------------9-7-----9---9--10----------------------9-7----------9--10--|
D|---------|----------------------------10-------------------------------------10-10----------|
A|---------|----------------------------------------------------------------------------------|
E|---------|----------------------------------------------------------------------------------|

GUITAR (Lead):

e|--------------------------------------------------------5------------|
B|--------------------8--6-5---------------------------8----5----------|
G|--4------5------7-----------5-4----4------5------7-----------5-4-----|
D|---------------------------------7--------------------------------7--|
A|---------------------------------------------------------------------|
E|---------------------------------------------------------------------|

GUITAR (Banjo):

d|-------5---------5---------5---------5---------5---------5---------5---------5-----|
C|-----0----0----0----0----0----0----0----0----0----0----0----0----0----0----0----0--|
G|--4---------5---------7---------9---------4---------5---------7---------9----------|
D|-----------------------------------------------------------------------------------|
A|-----------------------------------------------------------------------------------|
E|-----------------------------------------------------------------------------------|

BASS:

G|--------------------------2-------2-------------------------2-------2--|
D|--2-----2-3-----3-5-----5-----------2-----2-3-----3-5-----5------------|
A|-----------------------------0-3-------------------------------0-3-----|
E|-----------------------------------------------------------------------|

GUITAR (Vocals):

e|---------------------------------------------------------------------------------------|
B|--8-----10-8-----10-8--10-13--12-13---------8------------------------------------------|
G|--------------------------------------9--10-----9-------------7-9--7-----7------9--10--|
D|---------------------------------------------------10-7---10---------10----10----------|
A|---------------------------------------------------------------------------------------|
E|---------------------------------------------------------------------------------------|

GUITAR (Lead):

e|---------------------------------------------------------------------|
B|--------------------8--6-5-------------5-----------------------------|
G|--4------5------7-----------5-4----4------7-5------------5--7-5------|
D|---------------------------------7--------------7---5--7-------------|
A|---------------------------------------------------------------------|
E|---------------------------------------------------------------------|

GUITAR (Banjo):

d|-------5---------5---------5---------5---------5---------5---------5---------0-----|
C|-----0----0----0----0----0----0----0----0----0----0----0----0----0----0----0----0--|
G|--4---------5---------7---------9---------4---------5---------7---------9----------|
D|-----------------------------------------------------------------------------------|
A|-----------------------------------------------------------------------------------|
E|-----------------------------------------------------------------------------------|

BASS:

G|--------------------------2-------2--------------------------------------|
D|--2-----2-3-----3-5-----5-----------2---2--2-3---3--3-5---5--5-----------|
A|-----------------------------0-3-------------------------------3---3--3--|
E|-------------------------------------------------------------------------|

GUITAR (Vocals):

e|--------------------------------------------------------------------------------|
B|--8-----10-8-----10-8--------------------8-----10-8-----10-8-------8------------|
G|-----------------------9-7-----9---9--10----------------------9-7----9---9--10--|
D|----------------------------10--------------------------------------------------|
A|--------------------------------------------------------------------------------|
E|--------------------------------------------------------------------------------|

GUITAR (Lead):

e|--------------------------------------------------------5------------|
B|--------------------8--6-5---------------------------8----5----------|
G|--4------5------7-----------5-4----4------5------7-----------5-4-----|
D|---------------------------------7--------------------------------7--|
A|---------------------------------------------------------------------|
E|---------------------------------------------------------------------|

GUITAR (Banjo):

d|-------5---------5---------5---------5---------5---------5---------5---------5-----|
C|-----0----0----0----0----0----0----0----0----0----0----0----0----0----0----0----0--|
G|--4---------5---------7---------9---------4---------5---------7---------9----------|
D|-----------------------------------------------------------------------------------|
A|-----------------------------------------------------------------------------------|
E|-----------------------------------------------------------------------------------|

BASS:

G|-----------------------------------------------------------------------------------|
D|-----------------------------------------------------------------------------------|
A|--------------------------------0--0-0--0-------------------------------0--0-0--0--|
E|--0--0-0--0-1--1-1--1-3--3-3--3-----------0--0-0--0-1--1-1--1-3--3-3--3------------|

GUITAR (Vocals):

e|-----------------------------------------------------------------------------------|
B|--8-----10-8-----10-8--10-13--12-13---------8--------------------------------------|
G|--------------------------------------9--10-----9-------------7-9--7-----7---------|
D|---------------------------------------------------10-7---10---------10----10------|
A|-----------------------------------------------------------------------------------|
E|-----------------------------------------------------------------------------------|

GUITAR (Lead):

e|---------------------------------------------------------------------|
B|--------------------8--6-5-------------5-----------------------------|
G|--4------5------7-----------5-4----4------7-5------------5--7-5------|
D|---------------------------------7--------------7---5--7-------------|
A|---------------------------------------------------------------------|
E|---------------------------------------------------------------------|

GUITAR (Banjo):

d|-------5---------5---------5---------5---------5---------5---------5---------0-----|
C|-----0----0----0----0----0----0----0----0----0----0----0----0----0----0----0----0--|
G|--4---------5---------7---------9---------4---------5---------7---------9----------|
D|-----------------------------------------------------------------------------------|
A|-----------------------------------------------------------------------------------|
E|-----------------------------------------------------------------------------------|

BASS:

G|-----------------------------------------------------------------------------------|
D|-----------------------------------------------------------------------------------|
A|--------------------------------0--0-0--0-------------------------------3--3-3--3--|
E|--0--0-0--0-1--1-1--1-3--3-3--3-----------0--0-0--0-1--1-1--1-3--3-3--3------------|

 


Outro:

GUITAR (Lead): Tremolo Picking

e|--12----13--15(x6)--12---------------------------------------------------------------|
B|--------------------------13--10(x6)--13(x4)-15(x2)-17(x4)-15(x2)-13(x4)-15--13------|
G|-------------------------------------------------------------------------------------|
D|-------------------------------------------------------------------------------------|
A|-------------------------------------------------------------------------------------|
E|-------------------------------------------------------------------------------------|

GUITAR (Banjo):

d|-------5---------5---------5----2------|
C|-----0----0----0----0----0----0-0------|
G|--4---------5---------7---------0------|
D|---------------------------------------|
A|---------------------------------------|
E|---------------------------------------|

BASS:

G|-------------------------------|
D|--------------------5----------|
A|------------------------3------|
E|--0------1------3--------------|