AZALEA

CITRUS

ACORDES ~ By Fefe (Tron544)

 

* TUNED HALF STEP DOWN / AFINADO UN SEMITONO ABAJO *

Chords used/Acordes utilizados:

Am: x.0.2.2.1.0 or 5.7.7.5.5.5
Bm: x.2.4.4.3.2  -  B7: 7.9.7.8.7.7
C: x.3.5.5.5.3
D: x.5.7.7.7.5  -  Dsus4: x.5.7.7.7.5
D#°: x.6.7.5.7.x
Em: x.7.9.9.8.7
F: 1.3.3.2.1.1
G: 3.5.5.4.3.3  -  G/B: x.2.5.4.3.x

%: Same as the previous measure/Lo mismo que el compas anterior

| Em | Bm | C | G B7 |
| Em | Bm | C | % |


Em              Bm            C             G    B7
   Yurusareta koto nante sou ooku wa nai deshou
Em                 Bm         C              D   B7
   Dare no me ni kanaeba daremo kizutsukezu ni sumu
Em              Bm               C          G    B7
   Shiawase no teigi wa hito no kazu aru kedo
Em                   Bm           C        G
   Tsukamu made no michi wa ippon to kagiranai

 


            Bm        C             D          Em
   Maigo ni naru mae ni kimi no koe wo shirube ni
            Am           Bm            C        Dsus4  D  Dsus4  D
   Mimi no oku komaku wo motto furuwasete

 


               C          D           Bm        Em
   Michi naki michi wo yukou hajimete wo sasageyou
    Am          D   D#°      Em          D    G
   Amai yume sono mahou ni kakatta furi de
               C      D          Bm        Em
   Zankoku ni mo omoeru unmei no sono naka de
            Am         Bm          C       D
   Mitsukaranai you ni susumou ashiato wo... keshite

 


| Em D | C G/B | F | D |
| C ||

Azalea - citrus
00:00 / 00:00
DONATE%20BUTTON%20(ES)_edited.png

TABS ~ By Fefe (Tron544)

 

Intro:

eb|--------------|------------------12----10----------------------------------|
Bb|----------10--|--12--------10------------------10---------12-----------10--|
Gb|--9-11-12-----|------------------------------------12-11-------9-11-12-----|
Db|--------------|------------------------------------------------------------|
Ab|--------------|------------------------------------------------------------|
Eb|--------------|------------------------------------------------------------|

eb|------------------10----10-10--10-10--10-10---10-8-7----7-------------------|
Bb|--12--------10---------------------------------------10---10-8-7-8-7--------|
Gb|---------------------------------------------------------------------9-7-9--|
Db|----------------------------------------------------------------------------|
Ab|----------------------------------------------------------------------------|
Eb|----------------------------------------------------------------------------|


Verse/Estrofa:

eb|---------------------------------------------------|
Bb|----8-8-8-7----------------------------------------|
Gb|------------9-7-9-7--7-----7-9-7-7-----------------|
Db|------------------------9----------9--7--9---------|
Ab|---------------------------------------------------|
Eb|---------------------------------------------------|

eb|--------------------------------------------------------------|
Bb|----8-8-8-8-10-10-12-10--8--7-7-7-/8---8-8--10--12---10-10----|
Gb|--------------------------------------------------------------|
Db|--------------------------------------------------------------|
Ab|--------------------------------------------------------------|
Eb|--------------------------------------------------------------|

eb|---------------------------------------------------|
Bb|----8-8-8-7----------------------------------------|
Gb|------------9-7-9-7--7------7-9--------------------|
Db|------------------------9-9-------9-9-7--9---------|
Ab|---------------------------------------------------|
Eb|---------------------------------------------------|

eb|------------------------------------------------------------10--|
Bb|----8-8-8-8-10-10-12-10--8--7--7-/8---8-8-10--8----12--10-8-----|
Gb|----------------------------------------------------------------|
Db|----------------------------------------------------------------|
Ab|----------------------------------------------------------------|
Eb|----------------------------------------------------------------|


Pre-Chorus/Pre-Estribillo:

eb|-----------------------------10-------8--7----------------|
Bb|-------8-8-8/10----8--8-10-8-----8-8----------8-8-8-10-8--|
Gb|----------------------------------------------------------|
Db|----------------------------------------------------------|
Ab|----------------------------------------------------------|
Eb|----------------------------------------------------------|

eb|------------------------------8-/10----------------|
Bb|-----8-8-8-10-12--10--8-8-7-8----------------------|
Gb|---------------------------------------------------|
Db|---------------------------------------------------|
Ab|---------------------------------------------------|
Eb|---------------------------------------------------|

 


Chorus/Estribillo:

eb|----------------|----------------------------------------------------------------|
Bb|--13--12--------|--15-------------------13--12-------15--------------------------|
Gb|---------14-12--|------12-12--14--14-----------14-12-----12-12--14--12-------14--|
Db|----------------|----------------------------------------------------------------|
Ab|----------------|----------------------------------------------------------------|
Eb|----------------|----------------------------------------------------------------|

eb|--------------------------------------------------------------------------|
Bb|--12--12-12----12-12-----12/13--12----------------15--12----13--12--------|
Gb|---------------------14----------------14-----12-------------------14-12--|
Db|------------------------------------12-----12-----------------------------|
Ab|--------------------------------------------------------------------------|
Eb|--------------------------------------------------------------------------|

eb|--------------------------------------------------------------------------|
Bb|--15-------------------13--12-------15---------15/17--15----15--13-12-13--|
Gb|------12-12--14--14-----------14-12-----12-12-----------------------------|
Db|--------------------------------------------------------------------------|
Ab|--------------------------------------------------------------------------|
Eb|--------------------------------------------------------------------------|

eb|------------------------------------------------------------------------|
Bb|--12--------------------------------12--13-12---------------------------|
Gb|------12-12-------11--12-14---12-14---------------------14--12----------|
Db|--------------12------------------------------------12------------------|
Ab|------------------------------------------------------------------------|
Eb|------------------------------------------------------------------------|


Outro:

eb|--------12-14--|--15--14--12--14--12------12--------------------------------------------------------|
Bb|--13-15--------|----------------------15------15--12--13--12---------------15----15-13-12-13-12-----|
Gb|---------------|----------------------------------------------12--14----------------------------14--|
Db|---------------|------------------------------------------------------------------------------------|
Ab|---------------|------------------------------------------------------------------------------------|
Eb|---------------|------------------------------------------------------------------------------------|